Guitarists.net - The Online Guitar Community
 
Click here to register.
Password Reminder

 » Home » Guitar Lessons » Scales and Soloing » Fast Licks and Sequences
Hello, Today I thought that I should mabe post some fast Stuff. Mabe you find that they are useful or not.... Include fast Licks as a contrast to slow Licks in you Solos. It's Important that you begin slowly and build up to a higher Tempo. Have Fun... SL=Slide
Lick 1:
-------
 
|-15-14-12-----------------------------------------------------------|
|----------15-13-12--------------------------------------------------|
|-------------------14-12-11-9(SL)-----------------------------------|
|---------------------------------12-10-9-7(SL)----------------------|
|-----------------------------------------------10-9-7-5(SL)---------|
|------------------------------------------------------------8-7-5-3-|
 
Lick 2:
-------
 
|----------------------------------------------------------------------|
|-----------------------------------------------------------------12-12|
|-------------------------------------------------12---12-14-12-14--14-|
|-------------------------------12----12-14-12-14----14----------------|
|-------------12----12-14-12-14----14----------------------------------|
|-12-15-12-15----15----------------------------------------------------|
 
Lick 2(Continued)			-(BU)=Bend up 1 Step
----------------
 
|----------12---12-15-12-15-15(BU)------------------------------------|
|-15-12-15---15-------------------------------------------------------|
|---------------------------------------------------------------------|
|---------------------------------------------------------------------|
|---------------------------------------------------------------------|
|---------------------------------------------------------------------|
 
Lick 3SmileyVery Hip and Strange Sounding but if you use it right...)
-------
 
|-----9-----10----11-----12----13----14---15(BU)----------------------|
|---8-----9----10------11----12----13---------------------------------|
|-7-----8-----9------10----11----12-----------------------------------|
|---------------------------------------------------------------------|
|---------------------------------------------------------------------|
|---------------------------------------------------------------------|
 
Lick 4SmileyFeel free to add Hammer-Ons)
-------
 
|-0-3-5-0-5-7-0-7-8-0-8-9-0-10-12-15-17--------------------------------|
|----------------------------------------------------------------------|
|----------------------------------------------------------------------|
|----------------------------------------------------------------------|
|----------------------------------------------------------------------|
|----------------------------------------------------------------------|
 
Lick 5:
------
 
|-15-14-12----14-12-------12-----------------------------------12-14-15-19|
|----------15-------15-13----15-13-12-15-13-12-10-13-12-10-8-12-----------|
|-------------------------------------------------------------------------|
|-------------------------------------------------------------------------|
|-------------------------------------------------------------------------|
|-------------------------------------------------------------------------|
 

Print Version

 » Review posted by MetallicaManiac on Thursday, Jun. 21, 2007 @ 7:26 PM
General thoughts on this lesson:
This has to be the best soloing lesson I have seen in a long time. Very useful.

What was the best part about this lesson:
The licks are very easy, but majorly help improve your speed.

Is there anything you disagree with?
Hell no bizitch.

Recommended: Yes

0 1 2 3 4 5
Accuracy:  
Quality:  
Understandable:  
Relative:  
Overall Rating:  
Note: 5 = Excellent, 0 = Not My Taste

 » Review posted by omgwtfn00b on Sunday, Jan. 1, 2006 @ 6:11 PM
General thoughts on this lesson:
cool

What was the best part about this lesson:
N/A

Is there anything you disagree with?
N/A

Recommended: Yes

0 1 2 3 4 5
Accuracy:  
Quality:  
Understandable:  
Relative:  
Overall Rating:  
Note: 5 = Excellent, 0 = Not My Taste



Rate this item

If this material has been taken from another source without permission, please let us know. Guitarists.net can not be held responsible for members posts.

All content © of Guitarists.net 1999 - 2014.
Comments or problems? Feel free to let us know.
Privacy Policy :: Site Map :: Terms of Use Policy.